  0
SECTION
  2
HEADER
  9
$ACADVER
  1
AC1015
  9
$ACADMAINTVER
 70
     6
  9
$DWGCODEPAGE
  3
ANSI_1254
  9
$INSBASE
 10
0.0
 20
0.0
 30
0.0
  9
$EXTMIN
 10
0.0
 20
0.0
 30
0.0
  9
$EXTMAX
 10
279.4
 20
215.9
 30
0.0
  9
$LIMMIN
 10
0.0
 20
0.0
  9
$LIMMAX
 10
279.4
 20
215.9
  9
$ORTHOMODE
 70
     0
  9
$REGENMODE
 70
     1
  9
$FILLMODE
 70
     1
  9
$QTEXTMODE
 70
     0
  9
$MIRRTEXT
 70
     1
  9
$LTSCALE
 40
1.0
  9
$ATTMODE
 70
     1
  9
$TEXTSIZE
 40
3.5
  9
$TRACEWID
 40
1.0
  9
$TEXTSTYLE
  7
Standard
  9
$CLAYER
  8
0
  9
$CELTYPE
  6
ByLayer
  9
$CECOLOR
 62
   256
  9
$CELTSCALE
 40
1.0
  9
$DISPSILH
 70
     0
  9
$DIMSCALE
 40
1.0
  9
$DIMASZ
 40
3.5
  9
$DIMEXO
 40
1.0
  9
$DIMDLI
 40
3.75
  9
$DIMRND
 40
0.0
  9
$DIMDLE
 40
0.0
  9
$DIMEXE
 40
1.0
  9
$DIMTP
 40
0.0
  9
$DIMTM
 40
0.0
  9
$DIMTXT
 40
3.5
  9
$DIMCEN
 40
2.5
  9
$DIMTSZ
 40
0.0
  9
$DIMTOL
 70
     0
  9
$DIMLIM
 70
     0
  9
$DIMTIH
 70
     1
  9
$DIMTOH
 70
     1
  9
$DIMSE1
 70
     0
  9
$DIMSE2
 70
     0
  9
$DIMTAD
 70
     1
  9
$DIMZIN
 70
     0
  9
$DIMBLK
  1

  9
$DIMASO
 70
     1
  9
$DIMSHO
 70
     1
  9
$DIMPOST
  1

  9
$DIMAPOST
  1

  9
$DIMALT
 70
     0
  9
$DIMALTD
 70
     3
  9
$DIMALTF
 40
0.0393700787
  9
$DIMLFAC
 40
1.0
  9
$DIMTOFL
 70
     1
  9
$DIMTVP
 40
0.0
  9
$DIMTIX
 70
     0
  9
$DIMSOXD
 70
     0
  9
$DIMSAH
 70
     0
  9
$DIMBLK1
  1

  9
$DIMBLK2
  1

  9
$DIMSTYLE
  2
ISO-25
  9
$DIMCLRD
 70
     0
  9
$DIMCLRE
 70
     0
  9
$DIMCLRT
 70
     0
  9
$DIMTFAC
 40
1.0
  9
$DIMGAP
 40
1.524
  9
$DIMJUST
 70
     0
  9
$DIMSD1
 70
     0
  9
$DIMSD2
 70
     0
  9
$DIMTOLJ
 70
     0
  9
$DIMTZIN
 70
     0
  9
$DIMALTZ
 70
     0
  9
$DIMALTTZ
 70
     0
  9
$DIMUPT
 70
     0
  9
$DIMDEC
 70
     2
  9
$DIMTDEC
 70
     2
  9
$DIMALTU
 70
     2
  9
$DIMALTTD
 70
     3
  9
$DIMTXSTY
  7
Standard
  9
$DIMAUNIT
 70
     0
  9
$DIMADEC
 70
     2
  9
$DIMALTRND
 40
0.0
  9
$DIMAZIN
 70
     0
  9
$DIMDSEP
 70
    44
  9
$DIMATFIT
 70
     3
  9
$DIMFRAC
 70
     0
  9
$DIMLDRBLK
  1

  9
$DIMLUNIT
 70
     2
  9
$DIMLWD
 70
    -2
  9
$DIMLWE
 70
    -2
  9
$DIMTMOVE
 70
     0
  9
$LUNITS
 70
     2
  9
$LUPREC
 70
     2
  9
$SKETCHINC
 40
1.0
  9
$FILLETRAD
 40
10.0
  9
$AUNITS
 70
     0
  9
$AUPREC
 70
     2
  9
$MENU
  1
.
  9
$ELEVATION
 40
0.0
  9
$PELEVATION
 40
0.0
  9
$THICKNESS
 40
0.0
  9
$LIMCHECK
 70
     0
  9
$CHAMFERA
 40
0.0
  9
$CHAMFERB
 40
0.0
  9
$CHAMFERC
 40
0.0
  9
$CHAMFERD
 40
0.0
  9
$SKPOLY
 70
     0
  9
$TDCREATE
 40
2458985.646361956
  9
$TDUCREATE
 40
2458985.521361956
  9
$TDUPDATE
 40
2458985.646362211
  9
$TDUUPDATE
 40
2458985.521362211
  9
$TDINDWG
 40
0.0000000116
  9
$TDUSRTIMER
 40
0.0000000116
  9
$USRTIMER
 70
     1
  9
$ANGBASE
 50
0.0
  9
$ANGDIR
 70
     0
  9
$PDMODE
 70
     0
  9
$PDSIZE
 40
-1.0
  9
$PLINEWID
 40
0.0
  9
$SPLFRAME
 70
     0
  9
$SPLINETYPE
 70
     6
  9
$SPLINESEGS
 70
     8
  9
$HANDSEED
  5
C2
  9
$SURFTAB1
 70
     6
  9
$SURFTAB2
 70
     6
  9
$SURFTYPE
 70
     6
  9
$SURFU
 70
     6
  9
$SURFV
 70
     6
  9
$UCSBASE
  2

  9
$UCSNAME
  2

  9
$UCSORG
 10
0.0
 20
0.0
 30
0.0
  9
$UCSXDIR
 10
1.0
 20
0.0
 30
0.0
  9
$UCSYDIR
 10
0.0
 20
1.0
 30
0.0
  9
$UCSORTHOREF
  2

  9
$UCSORTHOVIEW
 70
     0
  9
$UCSORGTOP
 10
0.0
 20
0.0
 30
0.0
  9
$UCSORGBOTTOM
 10
0.0
 20
0.0
 30
0.0
  9
$UCSORGLEFT
 10
0.0
 20
0.0
 30
0.0
  9
$UCSORGRIGHT
 10
0.0
 20
0.0
 30
0.0
  9
$UCSORGFRONT
 10
0.0
 20
0.0
 30
0.0
  9
$UCSORGBACK
 10
0.0
 20
0.0
 30
0.0
  9
$PUCSBASE
  2

  9
$PUCSNAME
  2

  9
$PUCSORG
 10
0.0
 20
0.0
 30
0.0
  9
$PUCSXDIR
 10
1.0
 20
0.0
 30
0.0
  9
$PUCSYDIR
 10
0.0
 20
1.0
 30
0.0
  9
$PUCSORTHOREF
  2

  9
$PUCSORTHOVIEW
 70
     0
  9
$PUCSORGTOP
 10
0.0
 20
0.0
 30
0.0
  9
$PUCSORGBOTTOM
 10
0.0
 20
0.0
 30
0.0
  9
$PUCSORGLEFT
 10
0.0
 20
0.0
 30
0.0
  9
$PUCSORGRIGHT
 10
0.0
 20
0.0
 30
0.0
  9
$PUCSORGFRONT
 10
0.0
 20
0.0
 30
0.0
  9
$PUCSORGBACK
 10
0.0
 20
0.0
 30
0.0
  9
$USERI1
 70
     0
  9
$USERI2
 70
     0
  9
$USERI3
 70
     0
  9
$USERI4
 70
     0
  9
$USERI5
 70
     0
  9
$USERR1
 40
0.0
  9
$USERR2
 40
0.0
  9
$USERR3
 40
0.0
  9
$USERR4
 40
0.0
  9
$USERR5
 40
0.0
  9
$WORLDVIEW
 70
     1
  9
$SHADEDGE
 70
     3
  9
$SHADEDIF
 70
    70
  9
$TILEMODE
 70
     1
  9
$MAXACTVP
 70
    64
  9
$PINSBASE
 10
0.0
 20
0.0
 30
0.0
  9
$PLIMCHECK
 70
     0
  9
$PEXTMIN
 10
1.0000000000E+20
 20
1.0000000000E+20
 30
1.0000000000E+20
  9
$PEXTMAX
 10
-1.0000000000E+20
 20
-1.0000000000E+20
 30
-1.0000000000E+20
  9
$PLIMMIN
 10
0.0
 20
0.0
  9
$PLIMMAX
 10
420.0
 20
297.0
  9
$UNITMODE
 70
     0
  9
$VISRETAIN
 70
     1
  9
$PLINEGEN
 70
     0
  9
$PSLTSCALE
 70
     1
  9
$TREEDEPTH
 70
  3020
  9
$CMLSTYLE
  2
Standard
  9
$CMLJUST
 70
     0
  9
$CMLSCALE
 40
20.0
  9
$PROXYGRAPHICS
 70
     1
  9
$MEASUREMENT
 70
     1
  9
$CELWEIGHT
370
    -1
  9
$ENDCAPS
280
     0
  9
$JOINSTYLE
280
     0
  9
$LWDISPLAY
290
     1
  9
$INSUNITS
 70
     4
  9
$HYPERLINKBASE
  1

  9
$STYLESHEET
  1

  9
$XEDIT
290
     1
  9
$CEPSNTYPE
380
     0
  9
$PSTYLEMODE
290
     1
  9
$FINGERPRINTGUID
  2
{63a1779a-23f3-401f-989b-bdd21dfc76cf}
  9
$VERSIONGUID
  2
{FAEB1C32-E019-11D5-929B-00C0DF256EC4}
  9
$EXTNAMES
290
     1
  9
$PSVPSCALE
 40
0.0
  9
$OLESTARTUP
290
     0
  0
ENDSEC
  0
SECTION
  2
CLASSES
  0
CLASS
  1
ACDBDICTIONARYWDFLT
  2
AcDbDictionaryWithDefault
  3
ObjectDBX Classes
 90
        0
280
     0
281
     0
  0
CLASS
  1
VISUALSTYLE
  2
AcDbVisualStyle
  3
ObjectDBX Classes
 90
     4095
280
     0
281
     0
  0
CLASS
  1
MATERIAL
  2
AcDbMaterial
  3
ObjectDBX Classes
 90
     1153
280
     0
281
     0
  0
CLASS
  1
SCALE
  2
AcDbScale
  3
ObjectDBX Classes
 90
     1153
280
     0
281
     0
  0
CLASS
  1
TABLESTYLE
  2
AcDbTableStyle
  3
ObjectDBX Classes
 90
     4095
280
     0
281
     0
  0
CLASS
  1
MLEADERSTYLE
  2
AcDbMLeaderStyle
  3
ACDB_MLEADERSTYLE_CLASS
 90
     4095
280
     0
281
     0
  0
CLASS
  1
SUN
  2
AcDbSun
  3
SCENEOE
 90
     1153
280
     0
281
     0
  0
CLASS
  1
ACDBPLACEHOLDER
  2
AcDbPlaceHolder
  3
ObjectDBX Classes
 90
        0
280
     0
281
     0
  0
CLASS
  1
LAYOUT
  2
AcDbLayout
  3
ObjectDBX Classes
 90
        0
280
     0
281
     0
  0
ENDSEC
  0
SECTION
  2
TABLES
  0
TABLE
  2
VPORT
  5
8
330
0
100
AcDbSymbolTable
 70
     1
  0
VPORT
  5
29
330
8
100
AcDbSymbolTableRecord
100
AcDbViewportTableRecord
  2
*Active
 70
     0
 10
0.0
 20
0.0
 11
1.0
 21
1.0
 12
139.7
 22
107.95
 13
0.0
 23
0.0
 14
10.0
 24
10.0
 15
10.0
 25
10.0
 16
0.0
 26
0.0
 36
1.0
 17
0.0
 27
0.0
 37
0.0
 40
215.9
 41
1.2941176471
 42
50.0
 43
0.0
 44
0.0
 50
0.0
 51
0.0
 71
     0
 72
  2000
 73
     1
 74
     3
 75
     0
 76
     0
 77
     0
 78
     0
281
     0
 65
     1
110
0.0
120
0.0
130
0.0
111
1.0
121
0.0
131
0.0
112
0.0
122
1.0
132
0.0
 79
     0
146
0.0
  0
ENDTAB
  0
TABLE
  2
LTYPE
  5
5
330
0
100
AcDbSymbolTable
 70
     6
  0
LTYPE
  5
14
330
5
100
AcDbSymbolTableRecord
100
AcDbLinetypeTableRecord
  2
ByBlock
 70
     0
  3

 72
    65
 73
     0
 40
0.0
  0
LTYPE
  5
15
330
5
100
AcDbSymbolTableRecord
100
AcDbLinetypeTableRecord
  2
ByLayer
 70
     0
  3

 72
    65
 73
     0
 40
0.0
  0
LTYPE
  5
16
330
5
100
AcDbSymbolTableRecord
100
AcDbLinetypeTableRecord
  2
Continuous
 70
     0
  3
Solid line
 72
    65
 73
     0
 40
0.0
  0
LTYPE
  5
6E
330
5
100
AcDbSymbolTableRecord
100
AcDbLinetypeTableRecord
  2
HIDDEN
 70
     0
  3
Hidden __ __ __ __ __ __ __ __ __ __ __ __ __ __
 72
    65
 73
     2
 40
1.905
 49
1.27
 74
     0
 49
-0.635
 74
     0
  0
LTYPE
  5
6F
330
5
100
AcDbSymbolTableRecord
100
AcDbLinetypeTableRecord
  2
PHANTOM
 70
     0
  3
Phantom ______  __  __  ______  __  __  ______
 72
    65
 73
     6
 40
12.7
 49
6.35
 74
     0
 49
-1.27
 74
     0
 49
1.27
 74
     0
 49
-1.27
 74
     0
 49
1.27
 74
     0
 49
-1.27
 74
     0
  0
LTYPE
  5
70
330
5
100
AcDbSymbolTableRecord
100
AcDbLinetypeTableRecord
  2
CENTER
 70
     0
  3
Center ____ _ ____ _ ____ _ ____ _ ____ _ ____
 72
    65
 73
     4
 40
10.16
 49
6.35
 74
     0
 49
-1.27
 74
     0
 49
1.27
 74
     0
 49
-1.27
 74
     0
  0
LTYPE
  5
71
330
5
100
AcDbSymbolTableRecord
100
AcDbLinetypeTableRecord
  2
CENTERX2
 70
     0
  3
Center (2x) ________  __  ________  __  _____
 72
    65
 73
     4
 40
20.32
 49
12.7
 74
     0
 49
-2.54
 74
     0
 49
2.54
 74
     0
 49
-2.54
 74
     0
  0
LTYPE
  5
72
330
5
100
AcDbSymbolTableRecord
100
AcDbLinetypeTableRecord
  2
DOT2
 70
     0
  3
Dot (.5x) ........................................
 72
    65
 73
     2
 40
0.635
 49
0.0
 74
     0
 49
-0.635
 74
     0
  0
ENDTAB
  0
TABLE
  2
LAYER
  5
2
330
0
100
AcDbSymbolTable
 70
    17
  0
LAYER
  5
10
330
2
100
AcDbSymbolTableRecord
100
AcDbLayerTableRecord
  2
0
 70
     0
 62
     7
  6
Continuous
370
    -3
390
F
  0
LAYER
  5
73
330
2
100
AcDbSymbolTableRecord
100
AcDbLayerTableRecord
  2
FORMAT
 70
     0
 62
     7
  6
Continuous
370
    -3
390
F
  0
LAYER
  5
74
330
2
100
AcDbSymbolTableRecord
100
AcDbLayerTableRecord
  2
YARDIMCI_GEOMETRI
 70
     0
 62
    -6
  6
Continuous
290
     0
370
    -3
390
F
  0
LAYER
  5
75
330
2
100
AcDbSymbolTableRecord
100
AcDbLayerTableRecord
  2
SAYFA_CERCEVESI
 70
     0
 62
     7
  6
Continuous
370
    25
390
F
  0
LAYER
  5
76
330
2
100
AcDbSymbolTableRecord
100
AcDbLayerTableRecord
  2
ANTET
 70
     0
 62
     7
  6
Continuous
370
    -3
390
F
  0
LAYER
  5
77
330
2
100
AcDbSymbolTableRecord
100
AcDbLayerTableRecord
  2
OLCU
 70
     0
 62
   150
  6
Continuous
370
    -3
390
F
  0
LAYER
  5
78
330
2
100
AcDbSymbolTableRecord
100
AcDbLayerTableRecord
  2
METIN
 70
     0
 62
    96
  6
Continuous
370
    -3
390
F
  0
LAYER
  5
79
330
2
100
AcDbSymbolTableRecord
100
AcDbLayerTableRecord
  2
BALON
 70
     0
 62
     5
  6
Continuous
370
    -3
390
F
  0
LAYER
  5
7A
330
2
100
AcDbSymbolTableRecord
100
AcDbLayerTableRecord
  2
VURGU
 70
     0
 62
     7
  6
Continuous
370
    -3
390
F
  0
LAYER
  5
7B
330
2
100
AcDbSymbolTableRecord
100
AcDbLayerTableRecord
  2
SILIK
 70
     0
 62
     7
  6
Continuous
370
    -3
390
F
  0
LAYER
  5
7C
330
2
100
AcDbSymbolTableRecord
100
AcDbLayerTableRecord
  2
MODEL
 70
     0
 62
     7
  6
Continuous
370
    -3
390
F
  0
LAYER
  5
7D
330
2
100
AcDbSymbolTableRecord
100
AcDbLayerTableRecord
  2
DETAYLANDıRMA
 70
     0
 62
   190
  6
Continuous
370
    -3
390
F
  0
LAYER
  5
7E
330
2
100
AcDbSymbolTableRecord
100
AcDbLayerTableRecord
  2
TOLERANS
 70
     0
 62
   230
  6
Continuous
370
    -3
390
F
  0
LAYER
  5
7F
330
2
100
AcDbSymbolTableRecord
100
AcDbLayerTableRecord
  2
MERKEZ_CIZGILERI
 70
     0
 62
    30
  6
Continuous
370
    -3
390
F
  0
LAYER
  5
80
330
2
100
AcDbSymbolTableRecord
100
AcDbLayerTableRecord
  2
KESIT-DETAY_CIZGILERI
 70
     0
 62
     7
  6
Continuous
370
    -3
390
F
  0
LAYER
  5
81
330
2
100
AcDbSymbolTableRecord
100
AcDbLayerTableRecord
  2
\U+041E\U+0421\U+0415\U+0412\U+042B\U+0415
 70
     0
 62
     7
  6
Continuous
370
    -3
390
F
  0
LAYER
  5
82
330
2
100
AcDbSymbolTableRecord
100
AcDbLayerTableRecord
  2
\U+0412\U+041E\U+0414\U+042F\U+041D\U+042B\U+0415_\U+0417\U+041D\U+0410\U+041A\U+0418
 70
     0
 62
    11
  6
Continuous
370
    -3
390
F
  0
ENDTAB
  0
TABLE
  2
STYLE
  5
3
330
0
100
AcDbSymbolTable
 70
     1
  0
STYLE
  5
11
330
3
100
AcDbSymbolTableRecord
100
AcDbTextStyleTableRecord
  2
Standard
 70
     0
 40
0.0
 41
1.0
 50
0.0
 71
     0
 42
3.5
  3
txt
  4

  0
ENDTAB
  0
TABLE
  2
VIEW
  5
6
330
0
100
AcDbSymbolTable
 70
     0
  0
ENDTAB
  0
TABLE
  2
UCS
  5
7
330
0
100
AcDbSymbolTable
 70
     0
  0
ENDTAB
  0
TABLE
  2
APPID
  5
9
330
0
100
AcDbSymbolTable
 70
     1
  0
APPID
  5
12
330
9
100
AcDbSymbolTableRecord
100
AcDbRegAppTableRecord
  2
ACAD
 70
     0
  0
ENDTAB
  0
TABLE
  2
DIMSTYLE
  5
A
330
0
100
AcDbSymbolTable
 70
     1
100
AcDbDimStyleTable
  0
DIMSTYLE
105
27
330
A
100
AcDbSymbolTableRecord
100
AcDbDimStyleTableRecord
  2
ISO-25
 70
     0
 41
2.5
 42
0.625
 43
3.75
 44
1.25
 73
     0
 74
     0
 77
     1
 78
     8
140
2.5
141
2.5
143
0.0393700787
147
0.625
171
     3
172
     1
178
     0
271
     2
272
     2
274
     3
278
    44
283
     0
284
     8
340
11
  0
ENDTAB
  0
TABLE
  2
BLOCK_RECORD
  5
1
330
0
100
AcDbSymbolTable
 70
     1
  0
BLOCK_RECORD
  5
1F
330
1
100
AcDbSymbolTableRecord
100
AcDbBlockTableRecord
  2
*Model_Space
340
22
  0
BLOCK_RECORD
  5
1B
330
1
100
AcDbSymbolTableRecord
100
AcDbBlockTableRecord
  2
*Paper_Space
340
1E
  0
BLOCK_RECORD
  5
23
330
1
100
AcDbSymbolTableRecord
100
AcDbBlockTableRecord
  2
*Paper_Space0
340
26
  0
ENDTAB
  0
ENDSEC
  0
SECTION
  2
BLOCKS
  0
BLOCK
  5
20
330
1F
100
AcDbEntity
  8
0
100
AcDbBlockBegin
  2
*Model_Space
 70
     0
 10
0.0
 20
0.0
 30
0.0
  3
*Model_Space
  1

  0
ENDBLK
  5
21
330
1F
100
AcDbEntity
  8
0
100
AcDbBlockEnd
  0
BLOCK
  5
1C
330
1B
100
AcDbEntity
 67
     1
  8
0
100
AcDbBlockBegin
  2
*Paper_Space
 70
     0
 10
0.0
 20
0.0
 30
0.0
  3
*Paper_Space
  1

  0
ENDBLK
  5
1D
330
1B
100
AcDbEntity
 67
     1
  8
0
100
AcDbBlockEnd
  0
BLOCK
  5
24
330
23
100
AcDbEntity
  8
0
100
AcDbBlockBegin
  2
*Paper_Space0
 70
     0
 10
0.0
 20
0.0
 30
0.0
  3
*Paper_Space0
  1

  0
ENDBLK
  5
25
330
23
100
AcDbEntity
  8
0
100
AcDbBlockEnd
  0
ENDSEC
  0
SECTION
  2
ENTITIES
  0
CIRCLE
  5
83
330
1F
100
AcDbEntity
  8
0
  6
Continuous
 62
     7
370
    25
100
AcDbCircle
 10
145.1044881017
 20
109.1626393021
 30
0.0
 40
200.0
  0
CIRCLE
  5
84
330
1F
100
AcDbEntity
  8
0
  6
Continuous
 62
     7
370
    25
100
AcDbCircle
 10
145.1044881017
 20
109.1626393021
 30
0.0
 40
163.7
  0
CIRCLE
  5
85
330
1F
100
AcDbEntity
  8
0
  6
Continuous
 62
     7
370
    25
100
AcDbCircle
 10
145.1044881017
 20
109.1626393021
 30
0.0
 40
215.0
  0
CIRCLE
  5
86
330
1F
100
AcDbEntity
  8
0
  6
Continuous
 62
     7
370
    25
100
AcDbCircle
 10
145.1044881017
 20
109.1626393021
 30
0.0
 40
242.5
  0
LINE
  5
87
330
1F
100
AcDbEntity
  8
0
  6
Continuous
 62
     7
370
    25
100
AcDbLine
 10
387.6044881017
 20
675.3602628164
 30
0.0
 11
387.6044881017
 21
725.3602628164
 31
0.0
  0
LINE
  5
88
330
1F
100
AcDbEntity
  8
0
  6
Continuous
 62
     7
370
    25
100
AcDbLine
 10
-97.3955118983
 20
725.3602628164
 30
0.0
 11
-97.3955118983
 21
675.3602628164
 31
0.0
  0
LINE
  5
89
330
1F
100
AcDbEntity
  8
0
  6
Continuous
 62
     7
370
    25
100
AcDbLine
 10
360.1044881017
 20
725.3602628164
 30
0.0
 11
345.1044881017
 21
759.3602628164
 31
0.0
  0
LINE
  5
8A
330
1F
100
AcDbEntity
  8
0
  6
Continuous
 62
     7
370
    25
100
AcDbLine
 10
-54.8955118983
 20
759.3602628164
 30
0.0
 11
-69.8955118983
 21
725.3602628164
 31
0.0
  0
LINE
  5
8B
330
1F
100
AcDbEntity
  8
0
  6
Continuous
 62
     7
370
    25
100
AcDbLine
 10
345.1044881017
 20
759.3602628164
 30
0.0
 11
345.1044881017
 21
799.3602628164
 31
0.0
  0
LINE
  5
8C
330
1F
100
AcDbEntity
  8
0
  6
Continuous
 62
     7
370
    25
100
AcDbLine
 10
-54.8955118983
 20
799.3602628164
 30
0.0
 11
-54.8955118983
 21
759.3602628164
 31
0.0
  0
LINE
  5
8D
330
1F
100
AcDbEntity
  8
0
  6
Continuous
 62
     7
370
    25
100
AcDbLine
 10
387.6044881017
 20
675.3602628164
 30
0.0
 11
-97.3955118983
 21
675.3602628164
 31
0.0
  0
LINE
  5
8E
330
1F
100
AcDbEntity
  8
0
  6
Continuous
 62
     7
370
    25
100
AcDbLine
 10
387.6044881017
 20
725.3602628164
 30
0.0
 11
-97.3955118983
 21
725.3602628164
 31
0.0
  0
LINE
  5
8F
330
1F
100
AcDbEntity
  8
0
  6
Continuous
 62
     7
370
    25
100
AcDbLine
 10
345.1044881017
 20
759.3602628164
 30
0.0
 11
-54.8955118983
 21
759.3602628164
 31
0.0
  0
LINE
  5
90
330
1F
100
AcDbEntity
  8
0
  6
Continuous
 62
     7
370
    25
100
AcDbLine
 10
345.1044881017
 20
799.3602628164
 30
0.0
 11
-54.8955118983
 21
799.3602628164
 31
0.0
  0
LINE
  5
91
330
1F
100
AcDbEntity
  8
0
  6
Continuous
 62
     7
370
    25
100
AcDbLine
 10
-402.8149421155
 20
351.6626393021
 30
0.0
 11
-452.8149421155
 21
351.6626393021
 31
0.0
  0
LINE
  5
92
330
1F
100
AcDbEntity
  8
0
  6
Continuous
 62
     7
370
    25
100
AcDbLine
 10
-452.8149421155
 20
-133.3373606979
 30
0.0
 11
-402.8149421155
 21
-133.3373606979
 31
0.0
  0
LINE
  5
93
330
1F
100
AcDbEntity
  8
0
  6
Continuous
 62
     7
370
    25
100
AcDbLine
 10
-452.8149421155
 20
324.1626393021
 30
0.0
 11
-486.8149421155
 21
309.1626393021
 31
0.0
  0
LINE
  5
94
330
1F
100
AcDbEntity
  8
0
  6
Continuous
 62
     7
370
    25
100
AcDbLine
 10
-486.8149421155
 20
-90.8373606979
 30
0.0
 11
-452.8149421155
 21
-105.8373606979
 31
0.0
  0
LINE
  5
95
330
1F
100
AcDbEntity
  8
0
  6
Continuous
 62
     7
370
    25
100
AcDbLine
 10
-486.8149421155
 20
309.1626393021
 30
0.0
 11
-526.8149421155
 21
309.1626393021
 31
0.0
  0
LINE
  5
96
330
1F
100
AcDbEntity
  8
0
  6
Continuous
 62
     7
370
    25
100
AcDbLine
 10
-526.8149421155
 20
-90.8373606979
 30
0.0
 11
-486.8149421155
 21
-90.8373606979
 31
0.0
  0
LINE
  5
97
330
1F
100
AcDbEntity
  8
0
  6
Continuous
 62
     7
370
    25
100
AcDbLine
 10
-402.8149421155
 20
351.6626393021
 30
0.0
 11
-402.8149421155
 21
-133.3373606979
 31
0.0
  0
LINE
  5
98
330
1F
100
AcDbEntity
  8
0
  6
Continuous
 62
     7
370
    25
100
AcDbLine
 10
-452.8149421155
 20
351.6626393021
 30
0.0
 11
-452.8149421155
 21
-133.3373606979
 31
0.0
  0
LINE
  5
99
330
1F
100
AcDbEntity
  8
0
  6
Continuous
 62
     7
370
    25
100
AcDbLine
 10
-486.8149421155
 20
309.1626393021
 30
0.0
 11
-486.8149421155
 21
-90.8373606979
 31
0.0
  0
LINE
  5
9A
330
1F
100
AcDbEntity
  8
0
  6
Continuous
 62
     7
370
    25
100
AcDbLine
 10
-526.8149421155
 20
309.1626393021
 30
0.0
 11
-526.8149421155
 21
-90.8373606979
 31
0.0
  0
LINE
  5
9B
330
1F
100
AcDbEntity
  8
0
  6
Continuous
 62
     7
370
    25
100
AcDbLine
 10
-97.3955118983
 20
-474.2564051928
 30
0.0
 11
-97.3955118983
 21
-524.2564051928
 31
0.0
  0
LINE
  5
9C
330
1F
100
AcDbEntity
  8
0
  6
Continuous
 62
     7
370
    25
100
AcDbLine
 10
387.6044881017
 20
-524.2564051928
 30
0.0
 11
387.6044881017
 21
-474.2564051928
 31
0.0
  0
LINE
  5
9D
330
1F
100
AcDbEntity
  8
0
  6
Continuous
 62
     7
370
    25
100
AcDbLine
 10
-69.8955118983
 20
-524.2564051928
 30
0.0
 11
-54.8955118983
 21
-558.2564051928
 31
0.0
  0
LINE
  5
9E
330
1F
100
AcDbEntity
  8
0
  6
Continuous
 62
     7
370
    25
100
AcDbLine
 10
345.1044881017
 20
-558.2564051928
 30
0.0
 11
360.1044881017
 21
-524.2564051928
 31
0.0
  0
LINE
  5
9F
330
1F
100
AcDbEntity
  8
0
  6
Continuous
 62
     7
370
    25
100
AcDbLine
 10
-54.8955118983
 20
-558.2564051928
 30
0.0
 11
-54.8955118983
 21
-598.2564051928
 31
0.0
  0
LINE
  5
A0
330
1F
100
AcDbEntity
  8
0
  6
Continuous
 62
     7
370
    25
100
AcDbLine
 10
345.1044881017
 20
-598.2564051928
 30
0.0
 11
345.1044881017
 21
-558.2564051928
 31
0.0
  0
LINE
  5
A1
330
1F
100
AcDbEntity
  8
0
  6
Continuous
 62
     7
370
    25
100
AcDbLine
 10
-97.3955118983
 20
-474.2564051928
 30
0.0
 11
387.6044881017
 21
-474.2564051928
 31
0.0
  0
LINE
  5
A2
330
1F
100
AcDbEntity
  8
0
  6
Continuous
 62
     7
370
    25
100
AcDbLine
 10
-97.3955118983
 20
-524.2564051928
 30
0.0
 11
387.6044881017
 21
-524.2564051928
 31
0.0
  0
LINE
  5
A3
330
1F
100
AcDbEntity
  8
0
  6
Continuous
 62
     7
370
    25
100
AcDbLine
 10
-54.8955118983
 20
-558.2564051928
 30
0.0
 11
345.1044881017
 21
-558.2564051928
 31
0.0
  0
LINE
  5
A4
330
1F
100
AcDbEntity
  8
0
  6
Continuous
 62
     7
370
    25
100
AcDbLine
 10
-54.8955118983
 20
-598.2564051928
 30
0.0
 11
345.1044881017
 21
-598.2564051928
 31
0.0
  0
LINE
  5
A5
330
1F
100
AcDbEntity
  8
0
  6
Continuous
 62
     7
370
    25
100
AcDbLine
 10
700.4568671376
 20
-133.3373606979
 30
0.0
 11
750.4568671376
 21
-133.3373606979
 31
0.0
  0
LINE
  5
A6
330
1F
100
AcDbEntity
  8
0
  6
Continuous
 62
     7
370
    25
100
AcDbLine
 10
750.4568671376
 20
351.6626393021
 30
0.0
 11
700.4568671376
 21
351.6626393021
 31
0.0
  0
LINE
  5
A7
330
1F
100
AcDbEntity
  8
0
  6
Continuous
 62
     7
370
    25
100
AcDbLine
 10
750.4568671376
 20
-105.8373606979
 30
0.0
 11
784.4568671376
 21
-90.8373606979
 31
0.0
  0
LINE
  5
A8
330
1F
100
AcDbEntity
  8
0
  6
Continuous
 62
     7
370
    25
100
AcDbLine
 10
784.4568671376
 20
309.1626393021
 30
0.0
 11
750.4568671376
 21
324.1626393021
 31
0.0
  0
LINE
  5
A9
330
1F
100
AcDbEntity
  8
0
  6
Continuous
 62
     7
370
    25
100
AcDbLine
 10
784.4568671376
 20
-90.8373606979
 30
0.0
 11
824.4568671376
 21
-90.8373606979
 31
0.0
  0
LINE
  5
AA
330
1F
100
AcDbEntity
  8
0
  6
Continuous
 62
     7
370
    25
100
AcDbLine
 10
824.4568671376
 20
309.1626393021
 30
0.0
 11
784.4568671376
 21
309.1626393021
 31
0.0
  0
LINE
  5
AB
330
1F
100
AcDbEntity
  8
0
  6
Continuous
 62
     7
370
    25
100
AcDbLine
 10
700.4568671376
 20
109.1626393021
 30
0.0
 11
700.4568671376
 21
351.6626393021
 31
0.0
  0
LINE
  5
AC
330
1F
100
AcDbEntity
  8
0
  6
Continuous
 62
     7
370
    25
100
AcDbLine
 10
700.4568671376
 20
-133.3373606979
 30
0.0
 11
700.4568671376
 21
109.1626393021
 31
0.0
  0
LINE
  5
AD
330
1F
100
AcDbEntity
  8
0
  6
Continuous
 62
     7
370
    25
100
AcDbLine
 10
750.4568671376
 20
109.1626393021
 30
0.0
 11
750.4568671376
 21
351.6626393021
 31
0.0
  0
LINE
  5
AE
330
1F
100
AcDbEntity
  8
0
  6
Continuous
 62
     7
370
    25
100
AcDbLine
 10
750.4568671376
 20
-133.3373606979
 30
0.0
 11
750.4568671376
 21
109.1626393021
 31
0.0
  0
LINE
  5
AF
330
1F
100
AcDbEntity
  8
0
  6
Continuous
 62
     7
370
    25
100
AcDbLine
 10
784.4568671376
 20
109.1626393021
 30
0.0
 11
784.4568671376
 21
309.1626393021
 31
0.0
  0
LINE
  5
B0
330
1F
100
AcDbEntity
  8
0
  6
Continuous
 62
     7
370
    25
100
AcDbLine
 10
784.4568671376
 20
-90.8373606979
 30
0.0
 11
784.4568671376
 21
109.1626393021
 31
0.0
  0
LINE
  5
B1
330
1F
100
AcDbEntity
  8
0
  6
Continuous
 62
     7
370
    25
100
AcDbLine
 10
824.4568671376
 20
109.1626393021
 30
0.0
 11
824.4568671376
 21
309.1626393021
 31
0.0
  0
LINE
  5
B2
330
1F
100
AcDbEntity
  8
0
  6
Continuous
 62
     7
370
    25
100
AcDbLine
 10
824.4568671376
 20
-90.8373606979
 30
0.0
 11
824.4568671376
 21
109.1626393021
 31
0.0
  0
LINE
  5
B3
330
1F
100
AcDbEntity
  8
0
  6
Continuous
 62
     7
370
    25
100
AcDbLine
 10
915.2824310008
 20
-284.9468667112
 30
0.0
 11
879.9270919415
 21
-264.5366639157
 31
0.0
  0
LINE
  5
B4
330
1F
100
AcDbEntity
  8
0
  6
Continuous
 62
     7
370
    25
100
AcDbLine
 10
637.4467992772
 20
-684.5703621703
 30
0.0
 11
672.8021383366
 21
-704.9805649659
 31
0.0
  0
LINE
  5
B5
330
1F
100
AcDbEntity
  8
0
  6
Continuous
 62
     7
370
    25
100
AcDbLine
 10
834.6371883126
 20
-287.4648026659
 30
0.0
 11
806.3529170651
 21
-271.1366404294
 31
0.0
  0
LINE
  5
B6
330
1F
100
AcDbEntity
  8
0
  6
Continuous
 62
     7
370
    25
100
AcDbLine
 10
606.3691705379
 20
-617.5561853817
 30
0.0
 11
634.6534417854
 21
-633.8843476181
 31
0.0
  0
LINE
  5
B7
330
1F
100
AcDbEntity
  8
0
  6
Continuous
 62
     7
370
    25
100
AcDbLine
 10
827.271998826
 20
-278.2839567551
 30
0.0
 11
818.6374133805
 21
-278.2283292014
 31
0.0
  0
LINE
  5
B8
330
1F
100
AcDbEntity
  8
0
  6
Continuous
 62
     7
370
    25
100
AcDbLine
 10
618.6536668533
 20
-624.6478741537
 30
0.0
 11
623.0198335219
 21
-632.0974210434
 31
0.0
  0
LWPOLYLINE
  5
B9
330
1F
100
AcDbEntity
  8
0
  6
Continuous
 62
     7
370
    25
100
AcDbPolyline
 90
       85
 70
   128
 43
0.0
 10
915.2824310008
 20
-284.9468667112
 10
915.8680575316
 20
-285.2882230726
 10
920.3737884023
 20
-288.1439235876
 10
924.6963506699
 20
-291.2994930291
 10
928.8294770325
 20
-294.7503561233
 10
932.767174852
 20
-298.4915094484
 10
936.5037348429
 20
-302.5175286899
 10
940.0337393505
 20
-306.8225765047
 10
943.3520702057
 20
-311.400410985
 10
946.4539161461
 20
-316.2443947086
 10
949.3347797916
 20
-321.3475043621
 10
951.9904841652
 20
-326.7023409243
 10
954.4171787495
 20
-332.3011403942
 10
956.6113450694
 20
-338.1357850478
 10
958.5698017935
 20
-344.1978152082
 10
960.2897093468
 20
-350.4784415111
 10
961.7685740276
 20
-356.9685576489
 10
963.0042516237
 20
-363.6587535735
 10
963.9949505207
 20
-370.5393291406
 10
964.7392342997
 20
-377.6003081733
 10
965.2360238206
 20
-384.8314529271
 10
965.4845987861
 20
-392.2222789333
 10
965.4845987861
 20
-399.7620702009
 10
965.2360238206
 20
-407.4398947532
 10
964.7392342997
 20
-415.2446204788
 10
963.9949505207
 20
-423.1649312714
 10
963.0042516237
 20
-431.1893434377
 10
961.7685740276
 20
-439.306222347
 10
960.2897093468
 20
-447.503799301
 10
958.5698017935
 20
-455.7701885967
 10
956.6113450694
 20
-464.09340476
 10
954.4171787495
 20
-472.4613799231
 10
951.9904841652
 20
-480.8619813221
 10
949.3347797916
 20
-489.283028888
 10
946.4539161461
 20
-497.7123129068
 10
943.3520702057
 20
-506.1376117227
 10
940.0337393505
 20
-514.5467094578
 10
936.5037348429
 20
-522.9274137243
 10
932.767174852
 20
-531.2675733023
 10
928.8294770325
 20
-539.5550957575
 10
924.6963506699
 20
-547.7779649749
 10
920.3737884023
 20
-555.9242585802
 10
915.8680575316
 20
-563.9821652263
 10
911.185690937
 20
-571.940001719
 10
906.3334776023
 20
-579.7862299563
 10
901.3184527729
 20
-587.5094736571
 10
896.1478877556
 20
-595.0985348566
 10
890.8292793751
 20
-602.5424101415
 10
885.3703391053
 20
-609.8303066043
 10
879.7789818875
 20
-616.9516574919
 10
874.0633146554
 20
-623.8961375262
 10
868.2316245798
 20
-630.6536778751
 10
862.2923670539
 20
-637.2144807511
 10
856.2541534333
 20
-643.5690336174
 10
850.1257385505
 20
-649.7081229796
 10
843.9160080213
 20
-655.6228477453
 10
837.6339653611
 20
-661.3046321288
 10
831.2887189314
 20
-666.745238086
 10
824.8894687328
 20
-671.9367772585
 10
818.4454930662
 20
-676.8717224107
 10
811.9661350805
 20
-681.542918344
 10
805.4607892253
 20
-685.9435922707
 10
798.93888763
 20
-690.0673636345
 10
792.4098864286
 20
-693.9082533611
 10
785.8832520485
 20
-697.4606925276
 10
779.3684474858
 20
-700.7195304367
 10
772.8749185841
 20
-703.6800420852
 10
766.4120803396
 20
-706.3379350141
 10
759.9893032499
 20
-708.6893555327
 10
753.6158997278
 20
-710.7308943062
 10
747.3011105991
 20
-712.4595912984
 10
741.0540917043
 20
-713.872940064
 10
734.8839006235
 20
-714.9688913824
 10
728.799483544
 20
-715.745856229
 10
722.8096622888
 20
-716.202708079
 10
716.9231215262
 20
-716.338784541
 10
711.1483961775
 20
-716.1538883169
 10
705.4938590424
 20
-715.6482874888
 10
699.9677086591
 20
-714.8227151294
 10
694.5779574174
 20
-713.6783682398
 10
689.3324199414
 20
-712.2169060135
 10
684.2387017588
 20
-710.4404474311
 10
679.3041882741
 20
-708.3515681876
 10
674.5360340602
 20
-705.9532969584
 10
672.8021383366
 20
-704.9805649659
  0
LWPOLYLINE
  5
BA
330
1F
100
AcDbEntity
  8
0
  6
Continuous
 62
     7
370
    25
100
AcDbPolyline
 90
      117
 70
   128
 43
0.0
 10
785.8058535995
 20
-263.378976771
 10
789.5341296734
 20
-261.9650509978
 10
795.9333798721
 20
-259.7681731578
 10
802.2786263018
 20
-257.8827135269
 10
808.560668962
 20
-256.3114058415
 10
814.7703994912
 20
-255.0565283473
 10
820.898814374
 20
-254.1199004968
 10
826.9370279946
 20
-253.5028803108
 10
832.8762855204
 20
-253.2063624096
 10
838.707975596
 20
-253.2307767159
 10
844.4236428282
 20
-253.5760878312
 10
850.0150000459
 20
-254.2417950874
 10
855.4739403158
 20
-255.2269332726
 10
860.7925486962
 20
-256.5300740306
 10
865.9631137136
 20
-258.149327932
 10
870.9781385429
 20
-260.0823472133
 10
875.8303518776
 20
-262.3263291814
 10
880.5127184723
 20
-264.8780202771
 10
885.0184493429
 20
-267.733720792
 10
889.3410116106
 20
-270.8892902336
 10
893.4741379732
 20
-274.3401533277
 10
897.4118357926
 20
-278.0813066528
 10
901.1483957836
 20
-282.1073258943
 10
904.6784002912
 20
-286.4123737091
 10
907.9967311464
 20
-290.9902081894
 10
911.0985770868
 20
-295.834191913
 10
913.9794407322
 20
-300.9373015665
 10
916.6351451058
 20
-306.2921381287
 10
919.0618396902
 20
-311.8909375986
 10
921.2560060101
 20
-317.7255822523
 10
923.2144627342
 20
-323.7876124126
 10
924.9343702874
 20
-330.0682387155
 10
926.4132349683
 20
-336.5583548533
 10
927.6489125644
 20
-343.248550778
 10
928.6396114613
 20
-350.129126345
 10
929.3838952404
 20
-357.1901053777
 10
929.8806847613
 20
-364.4212501315
 10
930.1292597267
 20
-371.8120761377
 10
930.1292597267
 20
-379.3518674053
 10
929.8806847613
 20
-387.0296919577
 10
929.3838952404
 20
-394.8344176832
 10
928.6396114613
 20
-402.7547284759
 10
927.6489125644
 20
-410.7791406421
 10
926.4132349683
 20
-418.8960195514
 10
924.9343702874
 20
-427.0935965054
 10
923.2144627342
 20
-435.3599858011
 10
921.2560060101
 20
-443.6832019644
 10
919.0618396902
 20
-452.0511771276
 10
916.6351451058
 20
-460.4517785265
 10
913.9794407322
 20
-468.8728260924
 10
911.0985770868
 20
-477.3021101113
 10
907.9967311464
 20
-485.7274089272
 10
904.6784002912
 20
-494.1365066623
 10
901.1483957836
 20
-502.5172109288
 10
897.4118357926
 20
-510.8573705067
 10
893.4741379732
 20
-519.144892962
 10
889.3410116106
 20
-527.3677621794
 10
885.0184493429
 20
-535.5140557846
 10
880.5127184723
 20
-543.5719624307
 10
875.8303518776
 20
-551.5297989235
 10
870.9781385429
 20
-559.3760271607
 10
865.9631137136
 20
-567.0992708616
 10
860.7925486962
 20
-574.6883320611
 10
855.4739403158
 20
-582.132207346
 10
850.0150000459
 20
-589.4201038088
 10
844.4236428282
 20
-596.5414546963
 10
838.707975596
 20
-603.4859347306
 10
832.8762855204
 20
-610.2434750795
 10
826.9370279946
 20
-616.8042779556
 10
820.898814374
 20
-623.1588308218
 10
814.7703994912
 20
-629.2979201841
 10
808.560668962
 20
-635.2126449497
 10
802.2786263018
 20
-640.8944293332
 10
795.9333798721
 20
-646.3350352905
 10
789.5341296734
 20
-651.5265744629
 10
783.0901540069
 20
-656.4615196151
 10
776.6107960212
 20
-661.1327155484
 10
770.1054501659
 20
-665.5333894752
 10
763.5835485707
 20
-669.657160839
 10
757.0545473692
 20
-673.4980505655
 10
750.5279129892
 20
-677.050489732
 10
744.0131084264
 20
-680.3093276412
 10
737.5195795248
 20
-683.2698392896
 10
731.0567412803
 20
-685.9277322185
 10
724.6339641906
 20
-688.2791527371
 10
718.2605606685
 20
-690.3206915106
 10
711.9457715398
 20
-692.0493885028
 10
705.6987526449
 20
-693.4627372685
 10
699.5285615642
 20
-694.5586885869
 10
693.4441444847
 20
-695.3356534335
 10
687.4543232295
 20
-695.7925052835
 10
681.5677824669
 20
-695.9285817454
 10
675.7930571182
 20
-695.7436855214
 10
670.1385199831
 20
-695.2380846932
 10
664.6123695998
 20
-694.4125123338
 10
659.2226183581
 20
-693.2681654442
 10
653.977080882
 20
-691.8067032179
 10
648.8833626995
 20
-690.0302446355
 10
643.9488492148
 20
-687.9413653921
 10
639.1806950008
 20
-685.5430941628
 10
634.5858134253
 20
-682.8389082117
 10
630.1708666273
 20
-679.8327283499
 10
625.9422558576
 20
-676.5289132508
 10
621.9061121974
 20
-672.9322531304
 10
618.0682876694
 20
-669.0479628021
 10
614.434346752
 20
-664.8816741155
 10
611.0095583124
 20
-660.4394277909
 10
607.7988879662
 20
-655.7276646607
 10
604.8069908785
 20
-650.7532163312
 10
602.0382050142
 20
-645.5232952767
 10
599.4965448479
 20
-640.0454843829
 10
597.185695544
 20
-634.3277259518
 10
595.109007613
 20
-628.3783101866
 10
593.2694920539
 20
-622.2058631713
 10
591.6698159884
 20
-615.819334364
 10
590.3122987939
 20
-609.227983621
 10
589.3759992772
 20
-603.6423328238
  0
LWPOLYLINE
  5
BB
330
1F
100
AcDbEntity
  8
0
  6
Continuous
 62
     7
370
    25
100
AcDbPolyline
 90
       95
 70
   128
 43
0.0
 10
827.271998826
 20
-278.2839567551
 10
831.1155605768
 20
-278.3888168874
 10
836.4729519633
 20
-278.8123350146
 10
841.7025411456
 20
-279.5574553833
 10
846.7957359225
 20
-280.6229537627
 10
851.7441681882
 20
-282.0070795418
 10
856.5397076815
 20
-283.7075586056
 10
861.1744753438
 20
-285.7215970714
 10
865.6408562637
 20
-288.0458858792
 10
869.9315121894
 20
-290.6766062288
 10
874.0393935842
 20
-293.6094358535
 10
877.9577512099
 20
-296.8395561219
 10
881.6801472151
 20
-300.3616599548
 10
885.2004657131
 20
-304.169960545
 10
888.5129228298
 20
-308.2582008645
 10
891.6120762068
 20
-312.6196639453
 10
894.4928339432
 20
-317.247183915
 10
897.1504629617
 20
-322.1331577704
 10
899.5805967848
 20
-327.2695578692
 10
901.7792427089
 20
-332.6479451197
 10
903.7427883646
 20
-338.2594828457
 10
905.4680076516
 20
-344.0949513054
 10
906.9520660391
 20
-350.1447628394
 10
908.192525223
 20
-356.3989776234
 10
909.1873471321
 20
-362.8473199988
 10
909.9348972768
 20
-369.4791953561
 10
910.433947434
 20
-376.2837075415
 10
910.6836776657
 20
-383.2496767592
 10
910.6836776657
 20
-390.3656579402
 10
910.433947434
 20
-397.6199595461
 10
909.9348972768
 20
-405.0006627784
 10
909.1873471321
 20
-412.495641161
 10
908.192525223
 20
-420.0925804642
 10
906.9520660391
 20
-427.7789989366
 10
905.4680076516
 20
-435.5422678129
 10
903.7427883646
 20
-443.3696320626
 10
901.7792427089
 20
-451.2482313469
 10
899.5805967848
 20
-459.1651211479
 10
897.1504629617
 20
-467.1072940363
 10
894.4928339432
 20
-475.061701043
 10
891.6120762068
 20
-483.0152730981
 10
888.5129228298
 20
-490.9549425037
 10
885.2004657131
 20
-498.8676644038
 10
881.6801472151
 20
-506.740438217
 10
877.9577512099
 20
-514.5603289967
 10
874.0393935842
 20
-522.3144886828
 10
869.9315121894
 20
-529.9901772113
 10
865.6408562637
 20
-537.5747834462
 10
861.1744753438
 20
-545.0558458993
 10
856.5397076815
 20
-552.4210732046
 10
851.7441681882
 20
-559.658364313
 10
846.7957359225
 20
-566.7558283743
 10
841.7025411456
 20
-573.7018042736
 10
836.4729519633
 20
-580.4848797907
 10
831.1155605768
 20
-587.0939103505
 10
825.639169166
 20
-593.5180373329
 10
820.0527754278
 20
-599.7467059143
 10
814.3655577923
 20
-605.7696824086
 10
808.5868603432
 20
-611.5770710811
 10
802.7261774652
 20
-617.1593304076
 10
796.7931382449
 20
-622.5072887506
 10
790.7974906502
 20
-627.6121594286
 10
784.7490855143
 20
-632.4655551525
 10
778.6578603509
 20
-637.0595018059
 10
772.5338230271
 20
-641.3864515464
 10
766.38703532
 20
-645.439295207
 10
760.2275963858
 20
-649.2113739763
 10
754.0656261663
 20
-652.6964903386
 10
747.9112487626
 20
-655.888918257
 10
741.7745758005
 20
-658.7834125808
 10
735.6656898176
 20
-661.3752176634
 10
729.5946276976
 20
-663.6600751759
 10
723.5713641794
 20
-665.6342311033
 10
717.6057954693
 20
-667.2944419127
 10
711.7077229811
 20
-668.6379798821
 10
705.8868372323
 20
-669.662637582
 10
700.1527019229
 20
-670.3667315027
 10
694.5147382221
 20
-670.7491048196
 10
688.9822092896
 20
-670.8091292944
 10
683.5642050559
 20
-670.546706307
 10
678.2696272876
 20
-669.9622670177
 10
673.1071749622
 20
-669.0567716587
 10
668.0853299752
 20
-667.8317079565
 10
663.2123432048
 20
-666.2890886876
 10
658.4962209555
 20
-664.4314483714
 10
653.9447118036
 20
-662.261839106
 10
649.5652938669
 20
-659.7838255538
 10
645.3651625175
 20
-657.0014790845
 10
641.3512185602
 20
-653.919371086
 10
637.5300568943
 20
-650.5425654538
 10
633.9079556784
 20
-646.8766102705
 10
630.4908660153
 20
-642.927528691
 10
627.2844021744
 20
-638.701809046
 10
624.2938323673
 20
-634.2063941815
 10
623.0198335219
 20
-632.0974210434
  0
LWPOLYLINE
  5
BC
330
1F
100
AcDbEntity
  8
0
  6
Continuous
 62
     7
370
    25
100
AcDbPolyline
 90
      151
 70
   128
 43
0.0
 10
564.9396875642
 20
-525.9872240878
 10
565.0637381213
 20
-519.0769751667
 10
565.4356721657
 20
-512.0356234457
 10
566.0548371987
 20
-504.8755218485
 10
566.9201469944
 20
-497.6092316263
 10
568.0300835055
 20
-490.2495003213
 10
569.3826995261
 20
-482.8092394029
 10
570.9756221081
 20
-475.3015016171
 10
572.8060567241
 20
-467.7394580871
 10
574.8707921697
 20
-460.1363752068
 10
577.1662061973
 20
-452.5055913672
 10
579.6882718708
 20
-444.8604935561
 10
582.4325646299
 20
-437.2144938728
 10
585.3942700527
 20
-429.5810059989
 10
588.5681923015
 20
-421.9734216661
 10
591.948763238
 20
-414.4050871623
 10
595.5300521922
 20
-406.889279918
 10
599.3057763663
 20
-399.4391852129
 10
603.2693118572
 20
-392.0678730449
 10
607.4137052766
 20
-384.7882752
 10
611.7316859504
 20
-377.6131625668
 10
616.2156786731
 20
-370.5551227307
 10
620.8578169978
 20
-363.626537892
 10
625.6499570366
 20
-356.839563143
 10
630.5836917473
 20
-350.2061051434
 10
635.6503656829
 20
-343.7378012327
 10
640.8410901755
 20
-337.445999014
 10
646.1467589306
 20
-331.3417364462
 10
651.5580640024
 20
-325.4357224801
 10
657.0655121229
 20
-319.7383182712
 10
662.6594413567
 20
-314.2595190025
 10
668.330038051
 20
-309.0089363494
 10
674.0673540525
 20
-303.9957816182
 10
679.8613241593
 20
-299.2288495857
 10
685.701783779
 20
-294.7165030706
 10
691.5784867608
 20
-290.4666582619
 10
697.4811233709
 20
-286.4867708316
 10
703.3993383787
 20
-282.7838228545
 10
709.3227492243
 20
-279.3643105597
 10
715.2409642322
 20
-276.2342329337
 10
721.1436008423
 20
-273.3990811963
 10
727.0203038241
 20
-270.863829167
 10
732.8607634438
 20
-268.6329245394
 10
738.6547335506
 20
-266.7102810782
 10
744.392049552
 20
-265.0992717533
 10
750.0626462464
 20
-263.8027228227
 10
755.6565754802
 20
-262.8229088736
 10
761.1640236007
 20
-262.1615488327
 10
766.5753286724
 20
-261.8198029502
 10
771.8809974276
 20
-261.7982707645
 10
777.0717219202
 20
-262.0969900504
 10
782.1383958558
 20
-262.7154367528
 10
787.0721305665
 20
-263.652525906
 10
791.8642706053
 20
-264.9066135371
 10
796.50640893
 20
-266.4754995505
 10
800.9904016527
 20
-268.3564315867
 10
805.3083823265
 20
-270.546109852
 10
809.4527757459
 20
-273.0406929066
 10
813.4163112367
 20
-275.8358044042
 10
817.1920354109
 20
-278.9265407693
 10
820.7733243651
 20
-282.3074798003
 10
824.1538953016
 20
-285.9726901811
 10
827.3278175504
 20
-289.9157418873
 10
830.2895229732
 20
-294.1297174663
 10
833.0338157323
 20
-298.6072241732
 10
835.5558814058
 20
-303.3404069396
 10
837.8512954334
 20
-308.3209621546
 10
839.916030879
 20
-313.540152232
 10
841.7464654949
 20
-318.9888209389
 10
843.339388077
 20
-324.6574094588
 10
844.6920040976
 20
-330.5359731615
 10
845.8019406087
 20
-336.6141990485
 10
846.6672504044
 20
-342.8814238462
 10
847.2864154374
 20
-349.3266527128
 10
847.6583494818
 20
-355.9385785267
 10
847.7824000388
 20
-362.7056017233
 10
847.6583494818
 20
-369.6158506444
 10
847.2864154374
 20
-376.6572023654
 10
846.6672504044
 20
-383.8173039626
 10
845.8019406087
 20
-391.0835941848
 10
844.6920040976
 20
-398.4433254898
 10
843.339388077
 20
-405.8835864082
 10
841.7464654949
 20
-413.391324194
 10
839.916030879
 20
-420.953367724
 10
837.8512954334
 20
-428.5564506043
 10
835.5558814058
 20
-436.1872344439
 10
833.0338157323
 20
-443.832332255
 10
830.2895229732
 20
-451.4783319383
 10
827.3278175504
 20
-459.1118198122
 10
824.1538953016
 20
-466.719404145
 10
820.7733243651
 20
-474.2877386488
 10
817.1920354109
 20
-481.8035458931
 10
813.4163112367
 20
-489.2536405982
 10
809.4527757459
 20
-496.6249527663
 10
805.3083823265
 20
-503.9045506111
 10
800.9904016527
 20
-511.0796632443
 10
796.50640893
 20
-518.1377030804
 10
791.8642706053
 20
-525.0662879191
 10
787.0721305665
 20
-531.8532626681
 10
782.1383958558
 20
-538.4867206677
 10
777.0717219202
 20
-544.9550245784
 10
771.8809974276
 20
-551.2468267971
 10
766.5753286724
 20
-557.3510893649
 10
761.1640236007
 20
-563.257103331
 10
755.6565754802
 20
-568.9545075399
 10
750.0626462464
 20
-574.4333068086
 10
744.392049552
 20
-579.6838894617
 10
738.6547335506
 20
-584.6970441929
 10
732.8607634438
 20
-589.4639762254
 10
727.0203038241
 20
-593.9763227405
 10
721.1436008423
 20
-598.2261675492
 10
715.2409642322
 20
-602.2060549795
 10
709.3227492243
 20
-605.9090029566
 10
703.3993383787
 20
-609.3285152514
 10
697.4811233709
 20
-612.4585928774
 10
691.5784867608
 20
-615.2937446148
 10
685.701783779
 20
-617.8289966441
 10
679.8613241593
 20
-620.0599012717
 10
674.0673540525
 20
-621.9825447329
 10
668.330038051
 20
-623.5935540578
 10
662.6594413567
 20
-624.8901029884
 10
657.0655121229
 20
-625.8699169375
 10
651.5580640024
 20
-626.5312769784
 10
646.1467589306
 20
-626.8730228609
 10
640.8410901755
 20
-626.8945550466
 10
635.6503656829
 20
-626.5958357607
 10
630.5836917473
 20
-625.9773890583
 10
625.6499570366
 20
-625.0402999051
 10
620.8578169978
 20
-623.786212274
 10
616.2156786731
 20
-622.2173262606
 10
611.7316859504
 20
-620.3363942244
 10
607.4137052766
 20
-618.1467159591
 10
603.2693118572
 20
-615.6521329045
 10
599.3057763663
 20
-612.8570214069
 10
595.5300521922
 20
-609.7662850418
 10
591.948763238
 20
-606.3853460108
 10
588.5681923015
 20
-602.72013563
 10
585.3942700527
 20
-598.7770839238
 10
582.4325646299
 20
-594.5631083448
 10
579.6882718708
 20
-590.0856016379
 10
577.1662061973
 20
-585.3524188715
 10
574.8707921697
 20
-580.3718636565
 10
572.8060567241
 20
-575.1526735791
 10
570.9756221081
 20
-569.7040048722
 10
569.3826995261
 20
-564.0354163523
 10
568.0300835055
 20
-558.1568526496
 10
566.9201469944
 20
-552.0786267626
 10
566.0548371987
 20
-545.8114019649
 10
565.4356721657
 20
-539.3661730983
 10
565.0637381213
 20
-532.7542472844
 10
564.9396875642
 20
-525.9872240878
  0
LWPOLYLINE
  5
BD
330
1F
100
AcDbEntity
  8
0
  6
Continuous
 62
     7
370
    25
100
AcDbPolyline
 90
      136
 70
   128
 43
0.0
 10
590.6076637213
 20
-511.1694168582
 10
590.7330117441
 20
-504.8781220738
 10
591.1087843367
 20
-498.4557290863
 10
591.7341676592
 20
-491.9161473688
 10
592.6078072706
 20
-485.2735401992
 10
593.7278110622
 20
-478.5422939855
 10
595.091753355
 20
-471.7369871079
 10
596.6966801538
 20
-464.8723583459
 10
598.5391155446
 20
-457.9632749567
 10
600.6150692225
 20
-451.0247004764
 10
602.9200451341
 20
-444.0716623124
 10
605.4490512149
 20
-437.119219197
 10
608.1966102008
 20
-430.1824285738
 10
611.156771491
 20
-423.2763139867
 10
614.3231240352
 20
-416.415832542
 10
617.6888102188
 20
-409.6158425149
 10
621.2465407152
 20
-402.8910711696
 10
624.9886102721
 20
-396.2560828633
 10
628.9069144004
 20
-389.7252475033
 10
632.9929669256
 20
-383.3127094246
 10
637.237918368
 20
-377.0323567569
 10
641.6325751079
 20
-370.8977913455
 10
646.1674192975
 20
-364.9222992931
 10
650.832629474
 20
-359.1188221848
 10
655.6181018311
 20
-353.4999290598
 10
660.5134721011
 20
-348.0777891894
 10
665.5081380023
 20
-342.8641457212
 10
670.5912822004
 20
-337.8702902459
 10
675.751895737
 20
-333.1070383425
 10
680.9788018724
 20
-328.5847061539
 10
686.2606802918
 20
-324.3130880447
 10
691.5860916227
 20
-320.3014353885
 10
696.9435022099
 20
-316.5584365316
 10
702.3213090951
 20
-313.092197976
 10
707.7078651462
 20
-309.9102268228
 10
713.0915042821
 20
-307.0194145127
 10
718.4605667394
 20
-304.4260219015
 10
723.8034243242
 20
-302.1356657003
 10
729.1085055969
 20
-300.1533063104
 10
734.3643209326
 20
-298.4832370808
 10
739.5594874058
 20
-297.1290750098
 10
744.6827534426
 20
-296.0937529107
 10
749.7230231898
 20
-295.3795130607
 10
754.6693805453
 20
-294.9879023442
 10
759.5111128005
 20
-294.9197689029
 10
764.2377338417
 20
-295.1752602986
 10
768.83900686
 20
-295.7538231939
 10
773.3049665227
 20
-296.6542045504
 10
777.6259405557
 20
-297.8744543424
 10
781.7925706913
 20
-299.4119297808
 10
785.7958329366
 20
-301.2633010361
 10
789.627057117
 20
-303.4245584503
 10
793.2779456539
 20
-305.8910212212
 10
796.7405915358
 20
-308.6573475397
 10
800.0074954428
 20
-311.7175461589
 10
803.0715819884
 20
-315.06498937
 10
805.9262150436
 20
-318.6924273566
 10
808.5652121087
 20
-322.5920038956
 10
810.9828577037
 20
-326.7552733726
 10
813.1739157468
 20
-331.1732190729
 10
815.133640894
 20
-335.8362727101
 10
816.857788817
 20
-340.7343351482
 10
818.3426253954
 20
-345.8567982746
 10
819.5849348039
 20
-351.192567975
 10
820.5820264767
 20
-356.7300881603
 10
821.3317409355
 20
-362.4573657948
 10
821.8324544656
 20
-368.3619968706
 10
822.0830826331
 20
-374.4311932715
 10
822.0830826331
 20
-380.6518104697
 10
821.8324544656
 20
-387.0103759933
 10
821.3317409355
 20
-393.4931186055
 10
820.5820264767
 20
-400.0859981294
 10
819.5849348039
 20
-406.7747358558
 10
818.3426253954
 20
-413.5448454683
 10
816.857788817
 20
-420.3816644172
 10
815.133640894
 20
-427.2703856748
 10
813.1739157468
 20
-434.196089805
 10
810.9828577037
 20
-441.1437772748
 10
808.5652121087
 20
-448.0984009403
 10
805.9262150436
 20
-455.0448986351
 10
803.0715819884
 20
-461.9682257921
 10
800.0074954428
 20
-468.8533880264
 10
796.7405915358
 20
-475.6854736097
 10
793.2779456539
 20
-482.4496857661
 10
789.627057117
 20
-489.1313747181
 10
785.7958329366
 20
-495.7160694154
 10
781.7925706913
 20
-502.1895088756
 10
777.6259405557
 20
-508.5376730702
 10
773.3049665227
 20
-514.7468132893
 10
768.83900686
 20
-520.8034819176
 10
764.2377338417
 20
-526.6945615598
 10
759.5111128005
 20
-532.4072934489
 10
754.6693805453
 20
-537.92930508
 10
749.7230231898
 20
-543.2486370054
 10
744.6827534426
 20
-548.3537687366
 10
739.5594874058
 20
-553.2336436951
 10
734.3643209326
 20
-557.8776931585
 10
729.1085055969
 20
-562.2758591496
 10
723.8034243242
 20
-566.4186162203
 10
718.4605667394
 20
-570.2969920814
 10
713.0915042821
 20
-573.9025870342
 10
707.7078651462
 20
-577.2275921631
 10
702.3213090951
 20
-580.2648062473
 10
696.9435022099
 20
-583.0076513574
 10
691.5860916227
 20
-585.4501871017
 10
686.2606802918
 20
-587.5871234916
 10
680.9788018724
 20
-589.4138323989
 10
675.751895737
 20
-590.9263575787
 10
670.5912822004
 20
-592.1214232384
 10
665.5081380023
 20
-592.9964411317
 10
660.5134721011
 20
-593.5495161649
 10
655.6181018311
 20
-593.7794505005
 10
650.832629474
 20
-593.685746152
 10
646.1674192975
 20
-593.2686060622
 10
641.6325751079
 20
-592.5289336635
 10
637.237918368
 20
-591.4683309217
 10
632.9929669256
 20
-590.0890948661
 10
628.9069144004
 20
-588.394212615
 10
624.9886102721
 20
-586.3873549058
 10
621.2465407152
 20
-584.0728681456
 10
617.6888102188
 20
-581.4557649971
 10
614.3231240352
 20
-578.5417135231
 10
611.156771491
 20
-575.3370249102
 10
608.1966102008
 20
-571.8486398004
 10
605.4490512149
 20
-568.0841132588
 10
602.9200451341
 20
-564.0515984119
 10
600.6150692225
 20
-559.7598287887
 10
598.5391155446
 20
-555.2180994067
 10
596.6966801538
 20
-550.4362466402
 10
595.091753355
 20
-545.4246269177
 10
593.7278110622
 20
-540.1940942914
 10
592.6078072706
 20
-534.7559769304
 10
591.7341676592
 20
-529.1220525857
 10
591.1087843367
 20
-523.3045230831
 10
590.7330117441
 20
-517.3159878961
 10
590.6076637213
 20
-511.1694168582
  0
LWPOLYLINE
  5
BE
330
1F
100
AcDbEntity
  8
0
  6
Continuous
 62
     7
370
    25
100
AcDbPolyline
 90
       77
 70
   128
 43
0.0
 10
834.6371883126
 20
-287.4648026659
 10
837.7370469934
 20
-289.3688551431
 10
841.7005824842
 20
-292.1639666406
 10
845.4763066583
 20
-295.2547030058
 10
849.0575956125
 20
-298.6356420367
 10
852.4381665491
 20
-302.3008524175
 10
855.6120887978
 20
-306.2439041237
 10
858.5737942206
 20
-310.4578797028
 10
861.3180869798
 20
-314.9353864096
 10
863.8401526533
 20
-319.668569176
 10
866.1355666809
 20
-324.649124391
 10
868.2003021265
 20
-329.8683144684
 10
870.0307367424
 20
-335.3169831753
 10
871.6236593244
 20
-340.9855716953
 10
872.976275345
 20
-346.8641353979
 10
874.0862118561
 20
-352.9423612849
 10
874.9515216519
 20
-359.2095860827
 10
875.5706866849
 20
-365.6548149493
 10
875.9426207292
 20
-372.2667407632
 10
876.0666712863
 20
-379.0337639597
 10
875.9426207292
 20
-385.9440128809
 10
875.5706866849
 20
-392.9853646018
 10
874.9515216519
 20
-400.145466199
 10
874.0862118561
 20
-407.4117564212
 10
872.976275345
 20
-414.7714877263
 10
871.6236593244
 20
-422.2117486446
 10
870.0307367424
 20
-429.7194864305
 10
868.2003021265
 20
-437.2815299605
 10
866.1355666809
 20
-444.8846128407
 10
863.8401526533
 20
-452.5153966803
 10
861.3180869798
 20
-460.1604944915
 10
858.5737942206
 20
-467.8064941748
 10
855.6120887978
 20
-475.4399820486
 10
852.4381665491
 20
-483.0475663815
 10
849.0575956125
 20
-490.6159008853
 10
845.4763066583
 20
-498.1317081296
 10
841.7005824842
 20
-505.5818028346
 10
837.7370469934
 20
-512.9531150027
 10
833.5926535739
 20
-520.2327128475
 10
829.2746729002
 20
-527.4078254808
 10
824.7906801775
 20
-534.4658653169
 10
820.1485418527
 20
-541.3944501555
 10
815.356401814
 20
-548.1814249046
 10
810.4226671032
 20
-554.8148829042
 10
805.3559931677
 20
-561.2831868148
 10
800.165268675
 20
-567.5749890336
 10
794.8595999199
 20
-573.6792516014
 10
789.4482948482
 20
-579.5852655674
 10
783.9408467277
 20
-585.2826697763
 10
778.3469174939
 20
-590.7614690451
 10
772.6763207995
 20
-596.0120516982
 10
766.939004798
 20
-601.0252064294
 10
761.1450346912
 20
-605.7921384618
 10
755.3045750716
 20
-610.3044849769
 10
749.4278720897
 20
-614.5543297856
 10
743.5252354797
 20
-618.534217216
 10
737.6070204718
 20
-622.2371651931
 10
731.6836096262
 20
-625.6566774879
 10
725.7653946183
 20
-628.7867551138
 10
719.8627580083
 20
-631.6219068512
 10
713.9860550265
 20
-634.1571588805
 10
708.1455954068
 20
-636.3880635082
 10
702.3516253
 20
-638.3107069694
 10
696.6143092985
 20
-639.9217162942
 10
690.9437126041
 20
-641.2182652249
 10
685.3497833703
 20
-642.1980791739
 10
679.8423352498
 20
-642.8594392149
 10
674.4310301781
 20
-643.2011850973
 10
669.125361423
 20
-643.222717283
 10
663.9346369303
 20
-642.9239979971
 10
658.8679629948
 20
-642.3055512947
 10
653.934228284
 20
-641.3684621416
 10
649.1420882453
 20
-640.1143745104
 10
644.4999499205
 20
-638.5454884971
 10
640.0159571978
 20
-636.6645564608
 10
635.6979765241
 20
-634.4748781955
 10
634.6534417854
 20
-633.8843476181
  0
LWPOLYLINE
  5
BF
330
1F
100
AcDbEntity
  8
0
  6
Continuous
 62
     7
370
    25
100
AcDbPolyline
 90
       44
 70
   128
 43
0.0
 10
654.0351419937
 20
-547.7853206735
 10
654.1604900166
 20
-541.494025889
 10
654.5362626091
 20
-535.0716329015
 10
655.1616459316
 20
-528.5320511841
 10
656.0352855431
 20
-521.8894440145
 10
657.1552893346
 20
-515.1581978007
 10
658.5192316275
 20
-508.3528909231
 10
660.1241584263
 20
-501.4882621611
 10
661.966593817
 20
-494.5791787719
 10
664.0425474949
 20
-487.6406042917
 10
666.3475234065
 20
-480.6875661276
 10
668.8765294873
 20
-473.7351230122
 10
671.6240884733
 20
-466.7983323891
 10
674.5842497634
 20
-459.892217802
 10
677.7506023076
 20
-453.0317363573
 10
681.1162884913
 20
-446.2317463302
 10
684.6740189876
 20
-439.5069749848
 10
688.4160885446
 20
-432.8719866785
 10
692.3343926728
 20
-426.3411513185
 10
696.420445198
 20
-419.9286132399
 10
700.6653966404
 20
-413.6482605721
 10
705.0600533804
 20
-407.5136951607
 10
709.5948975699
 20
-401.5382031083
 10
714.2601077464
 20
-395.7347260001
 10
719.0455801035
 20
-390.1158328751
 10
723.9409503736
 20
-384.6936930047
 10
728.9356162747
 20
-379.4800495364
 10
734.0187604728
 20
-374.4861940611
 10
739.1793740095
 20
-369.7229421577
 10
744.4062801449
 20
-365.2006099691
 10
749.6881585643
 20
-360.9289918599
 10
755.0135698951
 20
-356.9173392037
 10
760.3709804823
 20
-353.1743403468
 10
765.7487873676
 20
-349.7081017913
 10
771.1353434186
 20
-346.526130638
 10
776.5189825545
 20
-343.6353183279
 10
781.8880450118
 20
-341.0419257168
 10
787.2309025966
 20
-338.7515695155
 10
792.5359838693
 20
-336.7692101256
 10
797.7917992051
 20
-335.0991408961
 10
802.9869656782
 20
-333.744978825
 10
808.1102317151
 20
-332.7096567259
 10
813.1505014622
 20
-331.9954168759
 10
813.5260869774
 20
-331.9547111395
  0
LWPOLYLINE
  5
C0
330
1F
100
AcDbEntity
  8
0
  6
Continuous
 62
     7
370
    25
100
AcDbPolyline
 90
       10
 70
   128
 43
0.0
 10
662.6234788981
 20
-593.3540184868
 10
661.966593817
 20
-591.8340032219
 10
660.1241584263
 20
-587.0521504555
 10
658.5192316275
 20
-582.040530733
 10
657.1552893346
 20
-576.8099981067
 10
656.0352855431
 20
-571.3718807456
 10
655.1616459316
 20
-565.737956401
 10
654.5362626091
 20
-559.9204268984
 10
654.1604900166
 20
-553.9318917113
 10
654.0351419937
 20
-547.7853206735
  0
LWPOLYLINE
  5
C1
330
1F
100
AcDbEntity
  8
0
  6
Continuous
 62
     7
370
    25
100
AcDbPolyline
 90
       35
 70
   128
 43
0.0
 10
654.6125586386
 20
-560.7864964489
 10
655.1539887914
 20
-554.7436905319
 10
656.0221400221
 20
-547.4994570131
 10
657.1356860331
 20
-540.1618168637
 10
658.4926469804
 20
-532.7438161401
 10
660.0906102369
 20
-525.2586437769
 10
661.9267346822
 20
-517.7196081373
 10
663.9977557541
 20
-510.1401133516
 10
666.2999912527
 20
-502.533635485
 10
668.8293478872
 20
-494.9136985776
 10
671.581328554
 20
-487.293850599
 10
674.5510403318
 20
-479.6876393609
 10
677.7332031814
 20
-472.1085884292
 10
681.1221593335
 20
-464.5701730801
 10
684.7118833476
 20
-457.0857963409
 10
688.4959928254
 20
-449.6687651602
 10
692.4677597585
 20
-442.3322667489
 10
696.62012249
 20
-435.0893451334
 10
700.9456982707
 20
-427.952877964
 10
705.4367963847
 20
-420.935553619
 10
710.0854318233
 20
-414.0498486448
 10
714.8833394824
 20
-407.3080055737
 10
719.8219888574
 20
-400.7220111567
 10
724.8925992098
 20
-394.3035750514
 10
730.0861551794
 20
-388.0641090031
 10
735.3934228133
 20
-382.0147065546
 10
740.8049659833
 20
-376.1661233227
 10
746.3111631632
 20
-370.5287578751
 10
751.9022245352
 20
-365.1126332418
 10
757.5682093964
 20
-359.9273790946
 10
763.2990438323
 20
-354.9822146263
 10
769.0845386285
 20
-350.2859321588
 10
774.9144073864
 20
-345.8468815109
 10
780.7782848121
 20
-341.6729551528
 10
781.3172025875
 20
-341.3038341709
  0
ENDSEC
  0
SECTION
  2
OBJECTS
  0
DICTIONARY
  5
C
330
0
100
AcDbDictionary
281
     1
  3
ACAD_GROUP
350
D
  3
ACAD_LAYOUT
350
1A
  3
ACAD_MLINESTYLE
350
17
  3
ACAD_PLOTSETTINGS
350
19
  3
ACAD_PLOTSTYLENAME
350
E
  3
ACAD_SCALELIST
350
47
  0
DICTIONARY
  5
D
102
{ACAD_REACTORS
330
C
102
}
330
C
100
AcDbDictionary
281
     1
  0
DICTIONARY
  5
1A
102
{ACAD_REACTORS
330
C
102
}
330
C
100
AcDbDictionary
281
     1
  3
Layout1
350
1E
  3
Layout2
350
26
  3
Model
350
22
  0
DICTIONARY
  5
17
102
{ACAD_REACTORS
330
C
102
}
330
C
100
AcDbDictionary
281
     1
  3
Standard
350
18
  0
DICTIONARY
  5
19
102
{ACAD_REACTORS
330
C
102
}
330
C
100
AcDbDictionary
281
     1
  0
ACDBDICTIONARYWDFLT
  5
E
102
{ACAD_REACTORS
330
C
102
}
330
C
100
AcDbDictionary
281
     1
  3
Normal
350
F
100
AcDbDictionaryWithDefault
340
F
  0
DICTIONARY
  5
47
102
{ACAD_REACTORS
330
C
102
}
330
C
100
AcDbDictionary
281
     1
  3
A0
350
48
  3
A1
350
49
  3
A2
350
4A
  3
A3
350
4B
  3
A4
350
4C
  3
A5
350
4D
  3
A6
350
4E
  3
A7
350
4F
  3
A8
350
50
  3
A9
350
51
  3
B0
350
52
  3
B1
350
53
  3
B2
350
54
  3
B3
350
55
  3
B4
350
56
  3
B5
350
57
  3
B6
350
58
  3
B7
350
59
  3
B8
350
5A
  3
B9
350
5B
  3
C0
350
5C
  3
C1
350
5D
  3
C2
350
5E
  3
C3
350
5F
  3
C4
350
60
  3
C5
350
61
  3
C6
350
62
  3
C7
350
63
  3
C8
350
64
  3
C9
350
65
  3
D0
350
66
  3
D1
350
67
  3
D2
350
68
  0
LAYOUT
  5
1E
102
{ACAD_REACTORS
330
1A
102
}
330
1A
100
AcDbPlotSettings
  1

  2
none_device
  4

  6

 40
0.0
 41
0.0
 42
0.0
 43
0.0
 44
0.0
 45
0.0
 46
0.0
 47
0.0
 48
0.0
 49
0.0
140
0.0
141
0.0
142
1.0
143
1.0
 70
   688
 72
     1
 73
     0
 74
     5
  7

 75
    16
147
1.0
148
0.0
149
0.0
100
AcDbLayout
  1
Layout1
 70
     1
 71
     1
 10
0.0
 20
0.0
 11
420.0
 21
297.0
 12
0.0
 22
0.0
 32
0.0
 14
1.0000000000E+20
 24
1.0000000000E+20
 34
1.0000000000E+20
 15
-1.0000000000E+20
 25
-1.0000000000E+20
 35
-1.0000000000E+20
146
0.0
 13
0.0
 23
0.0
 33
0.0
 16
1.0
 26
0.0
 36
0.0
 17
0.0
 27
1.0
 37
0.0
 76
     0
330
1B
  0
LAYOUT
  5
26
102
{ACAD_REACTORS
330
1A
102
}
330
1A
100
AcDbPlotSettings
  1

  2
none_device
  4

  6

 40
0.0
 41
0.0
 42
0.0
 43
0.0
 44
0.0
 45
0.0
 46
0.0
 47
0.0
 48
0.0
 49
0.0
140
0.0
141
0.0
142
1.0
143
1.0
 70
   688
 72
     1
 73
     0
 74
     5
  7

 75
    16
147
1.0
148
0.0
149
0.0
100
AcDbLayout
  1
Layout2
 70
     1
 71
     2
 10
0.0
 20
0.0
 11
0.0
 21
0.0
 12
0.0
 22
0.0
 32
0.0
 14
0.0
 24
0.0
 34
0.0
 15
0.0
 25
0.0
 35
0.0
146
0.0
 13
0.0
 23
0.0
 33
0.0
 16
1.0
 26
0.0
 36
0.0
 17
0.0
 27
1.0
 37
0.0
 76
     0
330
23
  0
LAYOUT
  5
22
102
{ACAD_REACTORS
330
1A
102
}
330
1A
100
AcDbPlotSettings
  1

  2
none_device
  4
Letter_(8.50_x_11.00_Inches)
  6

 40
6.35
 41
6.35
 42
6.35000508
 43
6.35000508
 44
215.9
 45
279.4
 46
0.0
 47
0.0
 48
0.0
 49
0.0
140
0.0
141
0.0
142
1.0
143
1.0
 70
  1712
 72
     1
 73
     0
 74
     0
  7

 75
     0
147
1.0
148
0.0
149
0.0
100
AcDbLayout
  1
Model
 70
     1
 71
     0
 10
0.0
 20
0.0
 11
279.4
 21
215.9
 12
0.0
 22
0.0
 32
0.0
 14
0.0
 24
0.0
 34
0.0
 15
279.4
 25
215.9
 35
0.0
146
0.0
 13
0.0
 23
0.0
 33
0.0
 16
1.0
 26
0.0
 36
0.0
 17
0.0
 27
1.0
 37
0.0
 76
     0
330
1F
331
29
  0
MLINESTYLE
  5
18
102
{ACAD_REACTORS
330
17
102
}
330
17
100
AcDbMlineStyle
  2
Standard
 70
     0
  3

 62
   256
 51
90.0
 52
90.0
 71
     2
 49
0.5
 62
   256
  6
BYLAYER
 49
-0.5
 62
   256
  6
BYLAYER
  0
ACDBPLACEHOLDER
  5
F
102
{ACAD_REACTORS
330
E
102
}
330
E
  0
SCALE
  5
48
102
{ACAD_REACTORS
330
47
102
}
330
47
100
AcDbScale
 70
     0
300
1:1
140
1.0
141
1.0
290
     1
  0
SCALE
  5
49
102
{ACAD_REACTORS
330
47
102
}
330
47
100
AcDbScale
 70
     0
300
1:2
140
1.0
141
2.0
290
     0
  0
SCALE
  5
4A
102
{ACAD_REACTORS
330
47
102
}
330
47
100
AcDbScale
 70
     0
300
1:4
140
1.0
141
4.0
290
     0
  0
SCALE
  5
4B
102
{ACAD_REACTORS
330
47
102
}
330
47
100
AcDbScale
 70
     0
300
1:5
140
1.0
141
5.0
290
     0
  0
SCALE
  5
4C
102
{ACAD_REACTORS
330
47
102
}
330
47
100
AcDbScale
 70
     0
300
1:8
140
1.0
141
8.0
290
     0
  0
SCALE
  5
4D
102
{ACAD_REACTORS
330
47
102
}
330
47
100
AcDbScale
 70
     0
300
1:10
140
1.0
141
10.0
290
     0
  0
SCALE
  5
4E
102
{ACAD_REACTORS
330
47
102
}
330
47
100
AcDbScale
 70
     0
300
1:16
140
1.0
141
16.0
290
     0
  0
SCALE
  5
4F
102
{ACAD_REACTORS
330
47
102
}
330
47
100
AcDbScale
 70
     0
300
1:20
140
1.0
141
20.0
290
     0
  0
SCALE
  5
50
102
{ACAD_REACTORS
330
47
102
}
330
47
100
AcDbScale
 70
     0
300
1:30
140
1.0
141
30.0
290
     0
  0
SCALE
  5
51
102
{ACAD_REACTORS
330
47
102
}
330
47
100
AcDbScale
 70
     0
300
1:40
140
1.0
141
40.0
290
     0
  0
SCALE
  5
52
102
{ACAD_REACTORS
330
47
102
}
330
47
100
AcDbScale
 70
     0
300
1:50
140
1.0
141
50.0
290
     0
  0
SCALE
  5
53
102
{ACAD_REACTORS
330
47
102
}
330
47
100
AcDbScale
 70
     0
300
1:100
140
1.0
141
100.0
290
     0
  0
SCALE
  5
54
102
{ACAD_REACTORS
330
47
102
}
330
47
100
AcDbScale
 70
     0
300
2:1
140
2.0
141
1.0
290
     0
  0
SCALE
  5
55
102
{ACAD_REACTORS
330
47
102
}
330
47
100
AcDbScale
 70
     0
300
4:1
140
4.0
141
1.0
290
     0
  0
SCALE
  5
56
102
{ACAD_REACTORS
330
47
102
}
330
47
100
AcDbScale
 70
     0
300
8:1
140
8.0
141
1.0
290
     0
  0
SCALE
  5
57
102
{ACAD_REACTORS
330
47
102
}
330
47
100
AcDbScale
 70
     0
300
10:1
140
10.0
141
1.0
290
     0
  0
SCALE
  5
58
102
{ACAD_REACTORS
330
47
102
}
330
47
100
AcDbScale
 70
     0
300
100:1
140
100.0
141
1.0
290
     0
  0
SCALE
  5
59
102
{ACAD_REACTORS
330
47
102
}
330
47
100
AcDbScale
 70
     0
300
1/128" = 1'-0"
140
0.0078125
141
12.0
290
     0
  0
SCALE
  5
5A
102
{ACAD_REACTORS
330
47
102
}
330
47
100
AcDbScale
 70
     0
300
1/64" = 1'-0"
140
0.015625
141
12.0
290
     0
  0
SCALE
  5
5B
102
{ACAD_REACTORS
330
47
102
}
330
47
100
AcDbScale
 70
     0
300
1/32" = 1'-0"
140
0.03125
141
12.0
290
     0
  0
SCALE
  5
5C
102
{ACAD_REACTORS
330
47
102
}
330
47
100
AcDbScale
 70
     0
300
1/16" = 1'-0"
140
0.0625
141
12.0
290
     0
  0
SCALE
  5
5D
102
{ACAD_REACTORS
330
47
102
}
330
47
100
AcDbScale
 70
     0
300
3/32" = 1'-0"
140
0.09375
141
12.0
290
     0
  0
SCALE
  5
5E
102
{ACAD_REACTORS
330
47
102
}
330
47
100
AcDbScale
 70
     0
300
1/8" = 1'-0"
140
0.125
141
12.0
290
     0
  0
SCALE
  5
5F
102
{ACAD_REACTORS
330
47
102
}
330
47
100
AcDbScale
 70
     0
300
3/16" = 1'-0"
140
0.1875
141
12.0
290
     0
  0
SCALE
  5
60
102
{ACAD_REACTORS
330
47
102
}
330
47
100
AcDbScale
 70
     0
300
1/4" = 1'-0"
140
0.25
141
12.0
290
     0
  0
SCALE
  5
61
102
{ACAD_REACTORS
330
47
102
}
330
47
100
AcDbScale
 70
     0
300
3/8" = 1'-0"
140
0.375
141
12.0
290
     0
  0
SCALE
  5
62
102
{ACAD_REACTORS
330
47
102
}
330
47
100
AcDbScale
 70
     0
300
1/2" = 1'-0"
140
0.5
141
12.0
290
     0
  0
SCALE
  5
63
102
{ACAD_REACTORS
330
47
102
}
330
47
100
AcDbScale
 70
     0
300
3/4" = 1'-0"
140
0.75
141
12.0
290
     0
  0
SCALE
  5
64
102
{ACAD_REACTORS
330
47
102
}
330
47
100
AcDbScale
 70
     0
300
1" = 1'-0"
140
1.0
141
12.0
290
     0
  0
SCALE
  5
65
102
{ACAD_REACTORS
330
47
102
}
330
47
100
AcDbScale
 70
     0
300
1-1/2" = 1'-0"
140
1.5
141
12.0
290
     0
  0
SCALE
  5
66
102
{ACAD_REACTORS
330
47
102
}
330
47
100
AcDbScale
 70
     0
300
3" = 1'-0"
140
3.0
141
12.0
290
     0
  0
SCALE
  5
67
102
{ACAD_REACTORS
330
47
102
}
330
47
100
AcDbScale
 70
     0
300
6" = 1'-0"
140
6.0
141
12.0
290
     0
  0
SCALE
  5
68
102
{ACAD_REACTORS
330
47
102
}
330
47
100
AcDbScale
 70
     0
300
1'-0" = 1'-0"
140
12.0
141
12.0
290
     0
  0
ENDSEC
  0
EOF
